Make your own free website on Tripod.com

The JudyBats Guitar Archive version of
"Daylight" -- Version 0.x June 1999
Transcribed by Joe W Aultman
For private use only.
----------------------------------------------------------------

Progression/Pattern 1:
----------------------
   G       Gsus4   Cadd9 D
E -----3-------3-------3-----2-----
B -------3-------3-------------3---
G ---0-------0-------0-----2-----2-
D -----------------2-----0---------
A ---------3-----------------------
E -3-------------------------------

Progression/Pattern 2:
----------------------
   Am      C       D       -
E ---0-------0-------2-----2-----0-
B -----1-------1-------3-----3-----
G -------2-------2-------2---------
D -----------------0-----------0---
A -0-------3-----------------------
E ---------------------------------

Progression/Pattern 3:
----------------------
   D       Cadd9   G/B   A
E ---2-------3---------------0-----
B -----3-------3---------------2---
G -------2-------0-----0---------2-
D -0-----------------0-----2-------
A ---------3-------2-----0---------
E ---------------------------------

w/Pattern 1:
------------
G    Gsus4         Cadd9    D
 she slipped up on daylight

 G                    Gsus4        Cadd9     D
night was her best companion I've heard it told yet

G    Gsus4         Cadd9    D
 she slipped up on daylight

 G                    Gsus4        Cadd9 D
crack in the sidewalk she up and disappeared and sang 

G Gsus4 Cadd9 D  G        Gsus4    Cadd9 D
whoooooooooooooa daylight daylight

G Gsus4 Cadd9 D  G        Gsus4    Cadd9 D
whoooooooooooooa daylight daylight

w/Pattern 2:
------------
Am C             D                -
   all the people gathered 'round said

Am C       D                 -
   gosh we really liked that girl

Am      C           D           -
  and a boy said he always knew she was

w/Pattern 3:
------------
D       Cadd9  G/B  A  D     Cadd9  G/B  A
falling slowly         going nowhere

D         Cadd9        G/B                A 
 and some boy said you really should have been here I swear

D               Cadd9        G/B     A
she up and disappeared it was really too weird

--------------------------------------------------------------------------
The JudyBats Guitar Archive                           ,q8bmd8p.       ,,, 
http://intheshax.tripod.com/guitar                    iMWM()WMi#######XXX}
Corrections and comments to intheshax@mailandnews.com `Y8P"Y8P'       ```