The JudyBats Guitar Archive version of
"Don't Wait For Me" -- Version 0.8 May 1999
Transcribed by Mason Hall
For private use only.
----------------------------------------------------------------

Chords: E A D G B E
        -----------
     A  X 0 2 2 2 0
  A/F#  2 0 2 2 2 0
  A/G#  4 0 2 2 2 0 
     D  X X 0 2 3 2
     E  0 2 2 1 0 0

   (E)             (A)             (E)             (A)
 E ---------------------------------------------------------0-----
 B ---------0---------------0---------------0-------------------0-
 G -----------1---------------1---------------1-------------------
 D -----2---------------2---------------2---------------2---------
 A -------------2---0-----------0---2-----------2---0-------------
 E -0-------------------------------------------------------------

Verse:
------
E       A          E      A
  don't wait for me I'm already gone

E                 A             E            A
  got my hat in my hand and the usual in the other

E                      A              E               A
  I'll break away from you soon maybe April maybe June

             E                  A          E                       A
shucking you off like a wet suit peeling myself away from you like skin...

Chorus:
-------
A     A/F#               A/G#     D        A
  I'm glad I saw you here on this dying sphere

  A/F#            A/G#     D          E    A   E   A   E   A   E   A   
I really wanna die swear I don't know why

--------------------------------------------------------------------------
The JudyBats Guitar Archive                           ,q8bmd8p.       ,,, 
http://intheshax.tripod.com/guitar                    iMWM()WMi#######XXX}
Corrections and comments to intheshax@mailandnews.com `Y8P"Y8P'       ```