The JudyBats Guitar Archive version of
"Being Simple" -- Version 0.8 May 1999
Transcribed by Mason Hall
For private use only.
----------------------------------------------------------------

Chords: E A D G B E
        -----------
    Bb  X X 3 3 3 1
    C2  X 3 2 0 3 0
     D  X X 0 2 3 2
    F6  X X 3 2 3 0
 Fmaj7  X X 3 2 1 0
     G  3 2 0 0 3 3

Intro:
------
 E -7--7-----5-----8------------0-
 B -8--8-----7-----10-----------1-
 G -0-----0-----0------0--------0-
 D -----------------------0-----2-
 A --------------------------3--3-
 E -------------------------------

 E -7--7-----5-----8-----7-----5-----3--3--------3----
 B -8--8-----7-----10----8-----7-----5--5--------5----
 G -0-----0-----0------0----0-----0-----------------0-
 D ---------------------------------------------------
 A ---------------------------------------------------
 E ---------------------------------------------------

Verse:
------
G              C2        F6  C2
hearts can not be broken

        G        C2          F6  C2
they're small squishy things

G                C2                  F6    C2
they don't break like glass but they bruise easily

G            C2     F6  C2
this one you bruise

G              C2        F6  C2
words will not be spoken

      G            C2        F6  C2
never knowing what they mean

G               C2                   F6       C2
sticks and stones hurt my bones your promises have broken me

G            C2     F6  C2
each one you break

Chorus:
-------
      G                   C2                           
and I want to be good but good is being simple

Bb                 Fmaj7
simple is forgetting and I simply can't forget

  G                   C2
I want to be good but good is being simple

Bb                       Fmaj7
simple is forgetting and I simply can't forget

Bridge:
-------
G  D    Bb         Fmaj7
     oh great emptiness

G  D  Bb  Fmaj7

Outro:
------
G  D  Bb       Fmaj7
         and I simply can't forget

G  D  Bb  Fmaj  G  C2

--------------------------------------------------------------------------
The JudyBats Guitar Archive                           ,q8bmd8p.       ,,, 
http://intheshax.tripod.com/guitar                    iMWM()WMi#######XXX}
Corrections and comments to intheshax@mailandnews.com `Y8P"Y8P'       ```