Make your own free website on Tripod.com

The JudyBats Guitar Archive version of
"When Things Get Slow Around Here" -- Version 0.x June 1999
Transcribed by Joe W Aultman
For private use only.
----------------------------------------------------------------

   Capo II

Verse:
------
   (D)             (Bm)            (C)             (G/B)
 E ---2-----2-----2---2-----2-----2---0-----0-----0---3-----3-----3-
 B -----3-----3---------3-----3---------1-----1---------0-----0-----
 G -----------------------------------------------------------------
 D -0-----0-----0---------------------------------------------------
 A -----------------2-----2-----2---3-----3-----3---2-----2-----2---
 E -----------------------------------------------------------------

   (D)             (Bm)            (C)             (G/B)
 E ---2-----2-----2---2-----2-----2---0-----0-----0---3-----3-----3-
 B -----3-----3---------3-----3---------1-----1---------0-----0-----
 G -----------------------------------------------------------------
 D -0-----0-----0---------------------------------------------------
 A -----------------2-----2-----2---3-----3-----3---2-----2-----2---
 E -----------------------------------------------------------------

Chorus:
-------
   (Am)            (G)             (Am)            (G)
 E ---0-----0-----0---3-----3-----3---0-----0-----0---3-----3-----3-
 B -----1-----1---------0-----0---------1-----1---------0-----0-----
 G -----------------------------------------------------------------
 D -----------------------------------------------------------------
 A -0-----0-----0-------------------0-----0-----0-------------------
 E -----------------3-----3-----3-------------------3-----3-----3---

   (Am)            (G)             (Am)            (G)
 E ---0-----0-----0---3-----3-----3---0-----0-----------------------
 B -----1-----1---------0-----0---------1-----1-----------0---------
 G -----------------------------------------------------------0-----
 D -----------------------------------------------------0-------0---
 A -0-----0-----0-------------------0-----0-----0-----2-------------
 E -----------------3-----3-----3-------------------3---------------


Verse:
------
      D                       Bm                        C  G/B
you'd sit in my mama's kitchen and you'd pour your wine

        D                              Bm                      C  G/B
and I'd laugh 'til I though I loved you with your eyes like coins

Chorus:
-------
          Am                       G
with your eyes like coins and your renegade streak

      Am                      G
you'd tell your tales tales I never believed

Am          G   Am                             G
tales I now tell when things get slow around here

--------------------------------------------------------------------------
The JudyBats Guitar Archive                           ,q8bmd8p.       ,,, 
http://intheshax.tripod.com/guitar                    iMWM()WMi#######XXX}
Corrections and comments to intheshax@mailandnews.com `Y8P"Y8P'       ```